Guitar Lessons in Buenos Aires, Argentina
(5411) 4703-1480




Under the Bridge| Lesson 1
E|------------------------------------------|-----------------------------------------------|
B|-3-------3------------2-------------------|-3-----------3h5p3------------------------------|
G|-----2-----2------------------3-----------|---------2---------2----------------3-----------|
D|---4---4------------------4-----4-4-2-----|-----4-----4---------4s6-6------4-----4-4-2-----|
A|-5-----------4-2--------4---4---------5-2-|-4s5---5-------------5s7-7----4---4---------5-2-|
E|-----------------5-4--2-------------------|----------------------------2-------------------|
E|------------------------------------------------|-----------------------------------------------|
B|-3-----------3------------2---------------------|-3-----------3h5p3-----------------------------|
G|---------2-----2--------------------3-----------|---------2---------2---------------3-----3-----|
D|-----4-----4--------------------4-----4-4-2-----|-----4-----4--------4s6-6------4-----4-----4---|
A|-4s5---5---------4-2--------4-----4---------5-2-|-4s5---5------------5s7-7----4---4-----4-----4-| 
E|---------------------5-4--2---2-----------------|---------------------------2-------------------|

 Related songs