Guitar Lessons in Buenos Aires, Argentina
(5411) 4703-1480




Comfortably Numb| Lesson 1 – Solo 1
E|-x10--14~--14b15------------------------------|----------14r15---|------------------------------------|
B|-x10-------------15b17---15-14-14-------------|--------x---------|--15b17---15p14---------------------|
G|----------------------------------14----------|-------x----------|----------------14------------------|
D|-------------------------------------14/---12-|------x-----------|-------------------14--12--11--9--7-|
A|----------------------------------------------|--x14-------------|------------------------------------|
E|----------------------------------------------|------------------|------------------------------------|
E|----------------|-----------------------------------|----14b15r14--12--------|---------------------------|
B|----------------|-----------------------------------|---x------------15p12---|---------------------------|
G|-9b12=-pb11-pb9-|-7-11p9--9--7--9p7---7-9-11b-11b12-|--x------------------12-|---------------------------|
D|----------------|-------------------9---------------|-x----------------------|-12--10/9--9~--9/010\9/7-7-|
A|----------------|-----------------------------------|------------------------|---------------------------|
E|----------------|-----------------------------------|------------------------|---------------------------|
E|--------------|--------------------------------|
B|--------------|--------------------------------|
G|---9b12—pb12--|-9pb12—9b12-----7---------------|
D|--------------|--------------------7/9\7--7~---|
A|--------------|--------------------------------|
E|--------------|--------------------------------|

 Related songs