Guitar Lessons in Buenos Aires, Argentina
(5411) 4703-1480




Afraid to Shoot Stranger| Lesson 4

 Style:  heavy metal

E|----------------------|----------9----------|------------------------|---------------------|----------------------------|
B|---------9-10-9----10-|----10-12---12-10-12-|-----9-10-12----9-10-12-|--10-9---------9-----|-10-10-10-12-10--9--10----9-|
G|------11--------11----|-11------------------|---9----------9---------|-------11-9-11---11--|-----------------------11---|
D|---11-----------------|---------------------|------------------------|---------------------|----------------------------|
A|----------------------|---------------------|------------------------|---------------------|----------------------------|
E|----------------------|---------------------|------------------------|---------------------|----------------------------|
E|--------------------------------|-----------------------------------|--------------------------------|
B|-9-9-9-9---------------7—9p7--7-|-10-10-10-10--10-12-10--9--10----9-|-9-9-9-9---------------7—9p7--7-|
G|---------9-11-11-11--9------9---|------------------------------11---|---------9-11-11-11--9-------9--|
D|--------------------------------|-----------------------------------|--------------------------------|
A|--------------------------------|-----------------------------------|--------------------------------|
E|--------------------------------|-----------------------------------|--------------------------------|X3
E|----------------------|----------9----------|------------------------|-------------------|
B|---------9-10-9----10-|----10-12---12-10-12-|-----9-10-12----9-10-12-|--10-9---------9---|
G|------11--------11----|-11------------------|---9----------9---------|-------11-9-11-----|
D|---11-----------------|---------------------|------------------------|-------------------|
A|----------------------|---------------------|------------------------|-------------------|
E|----------------------|---------------------|------------------------|-------------------|

 Related songs