November Rain| Lesson 1 – Solo 1- Part 1

 Style: Hard rockheavy metalblues rock

Eb|---------------------8-------------|-------------------------------8------------|-8-------------|-------------------|
Bb|-8b10---pb9b10r=9b10====pb10r==8p6-|-8b10r==9b10r8---8pb10r==9b10=====r8--6—-5--|---6p5--5b6--5-|----------8--------|
Gb|-----------------------------------|--------------------------------------------|---------------|-7p5--7s9---9s7--5-|
Db|-----------------------------------|--------------------------------------------|---------------|-------------------|
Ab|-----------------------------------|--------------------------------------------|---------------|-------------------|
Eb|-----------------------------------|--------------------------------------------|---------------|-------------------|

Eb|----------------------8--------------|---------------------------------8-8b10==r8-|-10b12r10---8--10p8------|-8--------|
Bb|-8b10---pb9b10r==9b10====pb10r==8p6--|-8b10r==9b10r8----8pb10r==9b10--------------|----------------------10-|---10/13--|
Gb|-------------------------------------|--------------------------------------------|-------------------------|----------|
Db|-------------------------------------|--------------------------------------------|-------------------------|----------|
Ab|-------------------------------------|--------------------------------------------|-------------------------|----------|
Eb|-------------------------------------|--------------------------------------------|-------------------------|----------|

 Related songs